  0
SECTION
  2
HEADER
  9
$ACADVER
  1
AC1015
  9
$ACADMAINTVER
 70
     6
  9
$DWGCODEPAGE
  3
ANSI_1254
  9
$INSBASE
 10
0.0
 20
0.0
 30
0.0
  9
$EXTMIN
 10
0.0
 20
0.0
 30
0.0
  9
$EXTMAX
 10
279.4
 20
215.9
 30
0.0
  9
$LIMMIN
 10
0.0
 20
0.0
  9
$LIMMAX
 10
279.4
 20
215.9
  9
$ORTHOMODE
 70
     0
  9
$REGENMODE
 70
     1
  9
$FILLMODE
 70
     1
  9
$QTEXTMODE
 70
     0
  9
$MIRRTEXT
 70
     1
  9
$LTSCALE
 40
1.0
  9
$ATTMODE
 70
     1
  9
$TEXTSIZE
 40
3.5
  9
$TRACEWID
 40
1.0
  9
$TEXTSTYLE
  7
Standard
  9
$CLAYER
  8
0
  9
$CELTYPE
  6
ByLayer
  9
$CECOLOR
 62
   256
  9
$CELTSCALE
 40
1.0
  9
$DISPSILH
 70
     0
  9
$DIMSCALE
 40
1.0
  9
$DIMASZ
 40
3.5
  9
$DIMEXO
 40
1.0
  9
$DIMDLI
 40
3.75
  9
$DIMRND
 40
0.0
  9
$DIMDLE
 40
0.0
  9
$DIMEXE
 40
1.0
  9
$DIMTP
 40
0.0
  9
$DIMTM
 40
0.0
  9
$DIMTXT
 40
3.5
  9
$DIMCEN
 40
2.5
  9
$DIMTSZ
 40
0.0
  9
$DIMTOL
 70
     0
  9
$DIMLIM
 70
     0
  9
$DIMTIH
 70
     1
  9
$DIMTOH
 70
     1
  9
$DIMSE1
 70
     0
  9
$DIMSE2
 70
     0
  9
$DIMTAD
 70
     1
  9
$DIMZIN
 70
     0
  9
$DIMBLK
  1

  9
$DIMASO
 70
     1
  9
$DIMSHO
 70
     1
  9
$DIMPOST
  1

  9
$DIMAPOST
  1

  9
$DIMALT
 70
     0
  9
$DIMALTD
 70
     3
  9
$DIMALTF
 40
0.0393700787
  9
$DIMLFAC
 40
1.0
  9
$DIMTOFL
 70
     1
  9
$DIMTVP
 40
0.0
  9
$DIMTIX
 70
     0
  9
$DIMSOXD
 70
     0
  9
$DIMSAH
 70
     0
  9
$DIMBLK1
  1

  9
$DIMBLK2
  1

  9
$DIMSTYLE
  2
ISO-25
  9
$DIMCLRD
 70
     0
  9
$DIMCLRE
 70
     0
  9
$DIMCLRT
 70
     0
  9
$DIMTFAC
 40
1.0
  9
$DIMGAP
 40
1.524
  9
$DIMJUST
 70
     0
  9
$DIMSD1
 70
     0
  9
$DIMSD2
 70
     0
  9
$DIMTOLJ
 70
     0
  9
$DIMTZIN
 70
     0
  9
$DIMALTZ
 70
     0
  9
$DIMALTTZ
 70
     0
  9
$DIMUPT
 70
     0
  9
$DIMDEC
 70
     2
  9
$DIMTDEC
 70
     2
  9
$DIMALTU
 70
     2
  9
$DIMALTTD
 70
     3
  9
$DIMTXSTY
  7
Standard
  9
$DIMAUNIT
 70
     0
  9
$DIMADEC
 70
     2
  9
$DIMALTRND
 40
0.0
  9
$DIMAZIN
 70
     0
  9
$DIMDSEP
 70
    44
  9
$DIMATFIT
 70
     3
  9
$DIMFRAC
 70
     0
  9
$DIMLDRBLK
  1

  9
$DIMLUNIT
 70
     2
  9
$DIMLWD
 70
    -2
  9
$DIMLWE
 70
    -2
  9
$DIMTMOVE
 70
     0
  9
$LUNITS
 70
     2
  9
$LUPREC
 70
     2
  9
$SKETCHINC
 40
1.0
  9
$FILLETRAD
 40
10.0
  9
$AUNITS
 70
     0
  9
$AUPREC
 70
     2
  9
$MENU
  1
.
  9
$ELEVATION
 40
0.0
  9
$PELEVATION
 40
0.0
  9
$THICKNESS
 40
0.0
  9
$LIMCHECK
 70
     0
  9
$CHAMFERA
 40
0.0
  9
$CHAMFERB
 40
0.0
  9
$CHAMFERC
 40
0.0
  9
$CHAMFERD
 40
0.0
  9
$SKPOLY
 70
     0
  9
$TDCREATE
 40
2458985.663523148
  9
$TDUCREATE
 40
2458985.538523148
  9
$TDUPDATE
 40
2458985.663523414
  9
$TDUUPDATE
 40
2458985.538523414
  9
$TDINDWG
 40
0.0000000116
  9
$TDUSRTIMER
 40
0.0000000116
  9
$USRTIMER
 70
     1
  9
$ANGBASE
 50
0.0
  9
$ANGDIR
 70
     0
  9
$PDMODE
 70
     0
  9
$PDSIZE
 40
-1.0
  9
$PLINEWID
 40
0.0
  9
$SPLFRAME
 70
     0
  9
$SPLINETYPE
 70
     6
  9
$SPLINESEGS
 70
     8
  9
$HANDSEED
  5
C2
  9
$SURFTAB1
 70
     6
  9
$SURFTAB2
 70
     6
  9
$SURFTYPE
 70
     6
  9
$SURFU
 70
     6
  9
$SURFV
 70
     6
  9
$UCSBASE
  2

  9
$UCSNAME
  2

  9
$UCSORG
 10
0.0
 20
0.0
 30
0.0
  9
$UCSXDIR
 10
1.0
 20
0.0
 30
0.0
  9
$UCSYDIR
 10
0.0
 20
1.0
 30
0.0
  9
$UCSORTHOREF
  2

  9
$UCSORTHOVIEW
 70
     0
  9
$UCSORGTOP
 10
0.0
 20
0.0
 30
0.0
  9
$UCSORGBOTTOM
 10
0.0
 20
0.0
 30
0.0
  9
$UCSORGLEFT
 10
0.0
 20
0.0
 30
0.0
  9
$UCSORGRIGHT
 10
0.0
 20
0.0
 30
0.0
  9
$UCSORGFRONT
 10
0.0
 20
0.0
 30
0.0
  9
$UCSORGBACK
 10
0.0
 20
0.0
 30
0.0
  9
$PUCSBASE
  2

  9
$PUCSNAME
  2

  9
$PUCSORG
 10
0.0
 20
0.0
 30
0.0
  9
$PUCSXDIR
 10
1.0
 20
0.0
 30
0.0
  9
$PUCSYDIR
 10
0.0
 20
1.0
 30
0.0
  9
$PUCSORTHOREF
  2

  9
$PUCSORTHOVIEW
 70
     0
  9
$PUCSORGTOP
 10
0.0
 20
0.0
 30
0.0
  9
$PUCSORGBOTTOM
 10
0.0
 20
0.0
 30
0.0
  9
$PUCSORGLEFT
 10
0.0
 20
0.0
 30
0.0
  9
$PUCSORGRIGHT
 10
0.0
 20
0.0
 30
0.0
  9
$PUCSORGFRONT
 10
0.0
 20
0.0
 30
0.0
  9
$PUCSORGBACK
 10
0.0
 20
0.0
 30
0.0
  9
$USERI1
 70
     0
  9
$USERI2
 70
     0
  9
$USERI3
 70
     0
  9
$USERI4
 70
     0
  9
$USERI5
 70
     0
  9
$USERR1
 40
0.0
  9
$USERR2
 40
0.0
  9
$USERR3
 40
0.0
  9
$USERR4
 40
0.0
  9
$USERR5
 40
0.0
  9
$WORLDVIEW
 70
     1
  9
$SHADEDGE
 70
     3
  9
$SHADEDIF
 70
    70
  9
$TILEMODE
 70
     1
  9
$MAXACTVP
 70
    64
  9
$PINSBASE
 10
0.0
 20
0.0
 30
0.0
  9
$PLIMCHECK
 70
     0
  9
$PEXTMIN
 10
1.0000000000E+20
 20
1.0000000000E+20
 30
1.0000000000E+20
  9
$PEXTMAX
 10
-1.0000000000E+20
 20
-1.0000000000E+20
 30
-1.0000000000E+20
  9
$PLIMMIN
 10
0.0
 20
0.0
  9
$PLIMMAX
 10
420.0
 20
297.0
  9
$UNITMODE
 70
     0
  9
$VISRETAIN
 70
     1
  9
$PLINEGEN
 70
     0
  9
$PSLTSCALE
 70
     1
  9
$TREEDEPTH
 70
  3020
  9
$CMLSTYLE
  2
Standard
  9
$CMLJUST
 70
     0
  9
$CMLSCALE
 40
20.0
  9
$PROXYGRAPHICS
 70
     1
  9
$MEASUREMENT
 70
     1
  9
$CELWEIGHT
370
    -1
  9
$ENDCAPS
280
     0
  9
$JOINSTYLE
280
     0
  9
$LWDISPLAY
290
     1
  9
$INSUNITS
 70
     4
  9
$HYPERLINKBASE
  1

  9
$STYLESHEET
  1

  9
$XEDIT
290
     1
  9
$CEPSNTYPE
380
     0
  9
$PSTYLEMODE
290
     1
  9
$FINGERPRINTGUID
  2
{65d7a8d2-fb21-4a6f-81ac-b096bddca3a1}
  9
$VERSIONGUID
  2
{FAEB1C32-E019-11D5-929B-00C0DF256EC4}
  9
$EXTNAMES
290
     1
  9
$PSVPSCALE
 40
0.0
  9
$OLESTARTUP
290
     0
  0
ENDSEC
  0
SECTION
  2
CLASSES
  0
CLASS
  1
ACDBDICTIONARYWDFLT
  2
AcDbDictionaryWithDefault
  3
ObjectDBX Classes
 90
        0
280
     0
281
     0
  0
CLASS
  1
VISUALSTYLE
  2
AcDbVisualStyle
  3
ObjectDBX Classes
 90
     4095
280
     0
281
     0
  0
CLASS
  1
MATERIAL
  2
AcDbMaterial
  3
ObjectDBX Classes
 90
     1153
280
     0
281
     0
  0
CLASS
  1
SCALE
  2
AcDbScale
  3
ObjectDBX Classes
 90
     1153
280
     0
281
     0
  0
CLASS
  1
TABLESTYLE
  2
AcDbTableStyle
  3
ObjectDBX Classes
 90
     4095
280
     0
281
     0
  0
CLASS
  1
MLEADERSTYLE
  2
AcDbMLeaderStyle
  3
ACDB_MLEADERSTYLE_CLASS
 90
     4095
280
     0
281
     0
  0
CLASS
  1
SUN
  2
AcDbSun
  3
SCENEOE
 90
     1153
280
     0
281
     0
  0
CLASS
  1
ACDBPLACEHOLDER
  2
AcDbPlaceHolder
  3
ObjectDBX Classes
 90
        0
280
     0
281
     0
  0
CLASS
  1
LAYOUT
  2
AcDbLayout
  3
ObjectDBX Classes
 90
        0
280
     0
281
     0
  0
ENDSEC
  0
SECTION
  2
TABLES
  0
TABLE
  2
VPORT
  5
8
330
0
100
AcDbSymbolTable
 70
     1
  0
VPORT
  5
29
330
8
100
AcDbSymbolTableRecord
100
AcDbViewportTableRecord
  2
*Active
 70
     0
 10
0.0
 20
0.0
 11
1.0
 21
1.0
 12
139.7
 22
107.95
 13
0.0
 23
0.0
 14
10.0
 24
10.0
 15
10.0
 25
10.0
 16
0.0
 26
0.0
 36
1.0
 17
0.0
 27
0.0
 37
0.0
 40
215.9
 41
1.2941176471
 42
50.0
 43
0.0
 44
0.0
 50
0.0
 51
0.0
 71
     0
 72
  2000
 73
     1
 74
     3
 75
     0
 76
     0
 77
     0
 78
     0
281
     0
 65
     1
110
0.0
120
0.0
130
0.0
111
1.0
121
0.0
131
0.0
112
0.0
122
1.0
132
0.0
 79
     0
146
0.0
  0
ENDTAB
  0
TABLE
  2
LTYPE
  5
5
330
0
100
AcDbSymbolTable
 70
     6
  0
LTYPE
  5
14
330
5
100
AcDbSymbolTableRecord
100
AcDbLinetypeTableRecord
  2
ByBlock
 70
     0
  3

 72
    65
 73
     0
 40
0.0
  0
LTYPE
  5
15
330
5
100
AcDbSymbolTableRecord
100
AcDbLinetypeTableRecord
  2
ByLayer
 70
     0
  3

 72
    65
 73
     0
 40
0.0
  0
LTYPE
  5
16
330
5
100
AcDbSymbolTableRecord
100
AcDbLinetypeTableRecord
  2
Continuous
 70
     0
  3
Solid line
 72
    65
 73
     0
 40
0.0
  0
LTYPE
  5
6E
330
5
100
AcDbSymbolTableRecord
100
AcDbLinetypeTableRecord
  2
HIDDEN
 70
     0
  3
Hidden __ __ __ __ __ __ __ __ __ __ __ __ __ __
 72
    65
 73
     2
 40
1.905
 49
1.27
 74
     0
 49
-0.635
 74
     0
  0
LTYPE
  5
6F
330
5
100
AcDbSymbolTableRecord
100
AcDbLinetypeTableRecord
  2
PHANTOM
 70
     0
  3
Phantom ______  __  __  ______  __  __  ______
 72
    65
 73
     6
 40
12.7
 49
6.35
 74
     0
 49
-1.27
 74
     0
 49
1.27
 74
     0
 49
-1.27
 74
     0
 49
1.27
 74
     0
 49
-1.27
 74
     0
  0
LTYPE
  5
70
330
5
100
AcDbSymbolTableRecord
100
AcDbLinetypeTableRecord
  2
CENTER
 70
     0
  3
Center ____ _ ____ _ ____ _ ____ _ ____ _ ____
 72
    65
 73
     4
 40
10.16
 49
6.35
 74
     0
 49
-1.27
 74
     0
 49
1.27
 74
     0
 49
-1.27
 74
     0
  0
LTYPE
  5
71
330
5
100
AcDbSymbolTableRecord
100
AcDbLinetypeTableRecord
  2
CENTERX2
 70
     0
  3
Center (2x) ________  __  ________  __  _____
 72
    65
 73
     4
 40
20.32
 49
12.7
 74
     0
 49
-2.54
 74
     0
 49
2.54
 74
     0
 49
-2.54
 74
     0
  0
LTYPE
  5
72
330
5
100
AcDbSymbolTableRecord
100
AcDbLinetypeTableRecord
  2
DOT2
 70
     0
  3
Dot (.5x) ........................................
 72
    65
 73
     2
 40
0.635
 49
0.0
 74
     0
 49
-0.635
 74
     0
  0
ENDTAB
  0
TABLE
  2
LAYER
  5
2
330
0
100
AcDbSymbolTable
 70
    17
  0
LAYER
  5
10
330
2
100
AcDbSymbolTableRecord
100
AcDbLayerTableRecord
  2
0
 70
     0
 62
     7
  6
Continuous
370
    -3
390
F
  0
LAYER
  5
73
330
2
100
AcDbSymbolTableRecord
100
AcDbLayerTableRecord
  2
FORMAT
 70
     0
 62
     7
  6
Continuous
370
    -3
390
F
  0
LAYER
  5
74
330
2
100
AcDbSymbolTableRecord
100
AcDbLayerTableRecord
  2
YARDIMCI_GEOMETRI
 70
     0
 62
    -6
  6
Continuous
290
     0
370
    -3
390
F
  0
LAYER
  5
75
330
2
100
AcDbSymbolTableRecord
100
AcDbLayerTableRecord
  2
SAYFA_CERCEVESI
 70
     0
 62
     7
  6
Continuous
370
    25
390
F
  0
LAYER
  5
76
330
2
100
AcDbSymbolTableRecord
100
AcDbLayerTableRecord
  2
ANTET
 70
     0
 62
     7
  6
Continuous
370
    -3
390
F
  0
LAYER
  5
77
330
2
100
AcDbSymbolTableRecord
100
AcDbLayerTableRecord
  2
OLCU
 70
     0
 62
   150
  6
Continuous
370
    -3
390
F
  0
LAYER
  5
78
330
2
100
AcDbSymbolTableRecord
100
AcDbLayerTableRecord
  2
METIN
 70
     0
 62
    96
  6
Continuous
370
    -3
390
F
  0
LAYER
  5
79
330
2
100
AcDbSymbolTableRecord
100
AcDbLayerTableRecord
  2
BALON
 70
     0
 62
     5
  6
Continuous
370
    -3
390
F
  0
LAYER
  5
7A
330
2
100
AcDbSymbolTableRecord
100
AcDbLayerTableRecord
  2
VURGU
 70
     0
 62
     7
  6
Continuous
370
    -3
390
F
  0
LAYER
  5
7B
330
2
100
AcDbSymbolTableRecord
100
AcDbLayerTableRecord
  2
SILIK
 70
     0
 62
     7
  6
Continuous
370
    -3
390
F
  0
LAYER
  5
7C
330
2
100
AcDbSymbolTableRecord
100
AcDbLayerTableRecord
  2
MODEL
 70
     0
 62
     7
  6
Continuous
370
    -3
390
F
  0
LAYER
  5
7D
330
2
100
AcDbSymbolTableRecord
100
AcDbLayerTableRecord
  2
DETAYLANDıRMA
 70
     0
 62
   190
  6
Continuous
370
    -3
390
F
  0
LAYER
  5
7E
330
2
100
AcDbSymbolTableRecord
100
AcDbLayerTableRecord
  2
TOLERANS
 70
     0
 62
   230
  6
Continuous
370
    -3
390
F
  0
LAYER
  5
7F
330
2
100
AcDbSymbolTableRecord
100
AcDbLayerTableRecord
  2
MERKEZ_CIZGILERI
 70
     0
 62
    30
  6
Continuous
370
    -3
390
F
  0
LAYER
  5
80
330
2
100
AcDbSymbolTableRecord
100
AcDbLayerTableRecord
  2
KESIT-DETAY_CIZGILERI
 70
     0
 62
     7
  6
Continuous
370
    -3
390
F
  0
LAYER
  5
81
330
2
100
AcDbSymbolTableRecord
100
AcDbLayerTableRecord
  2
\U+041E\U+0421\U+0415\U+0412\U+042B\U+0415
 70
     0
 62
     7
  6
Continuous
370
    -3
390
F
  0
LAYER
  5
82
330
2
100
AcDbSymbolTableRecord
100
AcDbLayerTableRecord
  2
\U+0412\U+041E\U+0414\U+042F\U+041D\U+042B\U+0415_\U+0417\U+041D\U+0410\U+041A\U+0418
 70
     0
 62
    11
  6
Continuous
370
    -3
390
F
  0
ENDTAB
  0
TABLE
  2
STYLE
  5
3
330
0
100
AcDbSymbolTable
 70
     1
  0
STYLE
  5
11
330
3
100
AcDbSymbolTableRecord
100
AcDbTextStyleTableRecord
  2
Standard
 70
     0
 40
0.0
 41
1.0
 50
0.0
 71
     0
 42
3.5
  3
txt
  4

  0
ENDTAB
  0
TABLE
  2
VIEW
  5
6
330
0
100
AcDbSymbolTable
 70
     0
  0
ENDTAB
  0
TABLE
  2
UCS
  5
7
330
0
100
AcDbSymbolTable
 70
     0
  0
ENDTAB
  0
TABLE
  2
APPID
  5
9
330
0
100
AcDbSymbolTable
 70
     1
  0
APPID
  5
12
330
9
100
AcDbSymbolTableRecord
100
AcDbRegAppTableRecord
  2
ACAD
 70
     0
  0
ENDTAB
  0
TABLE
  2
DIMSTYLE
  5
A
330
0
100
AcDbSymbolTable
 70
     1
100
AcDbDimStyleTable
  0
DIMSTYLE
105
27
330
A
100
AcDbSymbolTableRecord
100
AcDbDimStyleTableRecord
  2
ISO-25
 70
     0
 41
2.5
 42
0.625
 43
3.75
 44
1.25
 73
     0
 74
     0
 77
     1
 78
     8
140
2.5
141
2.5
143
0.0393700787
147
0.625
171
     3
172
     1
178
     0
271
     2
272
     2
274
     3
278
    44
283
     0
284
     8
340
11
  0
ENDTAB
  0
TABLE
  2
BLOCK_RECORD
  5
1
330
0
100
AcDbSymbolTable
 70
     1
  0
BLOCK_RECORD
  5
1F
330
1
100
AcDbSymbolTableRecord
100
AcDbBlockTableRecord
  2
*Model_Space
340
22
  0
BLOCK_RECORD
  5
1B
330
1
100
AcDbSymbolTableRecord
100
AcDbBlockTableRecord
  2
*Paper_Space
340
1E
  0
BLOCK_RECORD
  5
23
330
1
100
AcDbSymbolTableRecord
100
AcDbBlockTableRecord
  2
*Paper_Space0
340
26
  0
ENDTAB
  0
ENDSEC
  0
SECTION
  2
BLOCKS
  0
BLOCK
  5
20
330
1F
100
AcDbEntity
  8
0
100
AcDbBlockBegin
  2
*Model_Space
 70
     0
 10
0.0
 20
0.0
 30
0.0
  3
*Model_Space
  1

  0
ENDBLK
  5
21
330
1F
100
AcDbEntity
  8
0
100
AcDbBlockEnd
  0
BLOCK
  5
1C
330
1B
100
AcDbEntity
 67
     1
  8
0
100
AcDbBlockBegin
  2
*Paper_Space
 70
     0
 10
0.0
 20
0.0
 30
0.0
  3
*Paper_Space
  1

  0
ENDBLK
  5
1D
330
1B
100
AcDbEntity
 67
     1
  8
0
100
AcDbBlockEnd
  0
BLOCK
  5
24
330
23
100
AcDbEntity
  8
0
100
AcDbBlockBegin
  2
*Paper_Space0
 70
     0
 10
0.0
 20
0.0
 30
0.0
  3
*Paper_Space0
  1

  0
ENDBLK
  5
25
330
23
100
AcDbEntity
  8
0
100
AcDbBlockEnd
  0
ENDSEC
  0
SECTION
  2
ENTITIES
  0
CIRCLE
  5
83
330
1F
100
AcDbEntity
  8
0
  6
Continuous
 62
     7
370
    25
100
AcDbCircle
 10
145.567193351
 20
111.0931302271
 30
0.0
 40
125.0
  0
CIRCLE
  5
84
330
1F
100
AcDbEntity
  8
0
  6
Continuous
 62
     7
370
    25
100
AcDbCircle
 10
145.567193351
 20
111.0931302271
 30
0.0
 40
110.2
  0
CIRCLE
  5
85
330
1F
100
AcDbEntity
  8
0
  6
Continuous
 62
     7
370
    25
100
AcDbCircle
 10
145.567193351
 20
111.0931302271
 30
0.0
 40
144.0
  0
CIRCLE
  5
86
330
1F
100
AcDbEntity
  8
0
  6
Continuous
 62
     7
370
    25
100
AcDbCircle
 10
145.567193351
 20
111.0931302271
 30
0.0
 40
160.0
  0
LINE
  5
87
330
1F
100
AcDbEntity
  8
0
  6
Continuous
 62
     7
370
    25
100
AcDbLine
 10
305.567193351
 20
337.0646849034
 30
0.0
 11
305.567193351
 21
362.0646849034
 31
0.0
  0
LINE
  5
88
330
1F
100
AcDbEntity
  8
0
  6
Continuous
 62
     7
370
    25
100
AcDbLine
 10
-14.432806649
 20
362.0646849034
 30
0.0
 11
-14.432806649
 21
337.0646849034
 31
0.0
  0
LINE
  5
89
330
1F
100
AcDbEntity
  8
0
  6
Continuous
 62
     7
370
    25
100
AcDbLine
 10
289.567193351
 20
362.0646849034
 30
0.0
 11
270.567193351
 21
402.0646849034
 31
0.0
  0
LINE
  5
8A
330
1F
100
AcDbEntity
  8
0
  6
Continuous
 62
     7
370
    25
100
AcDbLine
 10
20.567193351
 20
402.0646849034
 30
0.0
 11
1.567193351
 21
362.0646849034
 31
0.0
  0
LINE
  5
8B
330
1F
100
AcDbEntity
  8
0
  6
Continuous
 62
     7
370
    25
100
AcDbLine
 10
270.567193351
 20
402.0646849034
 30
0.0
 11
270.567193351
 21
457.0646849034
 31
0.0
  0
LINE
  5
8C
330
1F
100
AcDbEntity
  8
0
  6
Continuous
 62
     7
370
    25
100
AcDbLine
 10
20.567193351
 20
457.0646849034
 30
0.0
 11
20.567193351
 21
402.0646849034
 31
0.0
  0
LINE
  5
8D
330
1F
100
AcDbEntity
  8
0
  6
Continuous
 62
     7
370
    25
100
AcDbLine
 10
305.567193351
 20
337.0646849034
 30
0.0
 11
-14.432806649
 21
337.0646849034
 31
0.0
  0
LINE
  5
8E
330
1F
100
AcDbEntity
  8
0
  6
Continuous
 62
     7
370
    25
100
AcDbLine
 10
305.567193351
 20
362.0646849034
 30
0.0
 11
-14.432806649
 21
362.0646849034
 31
0.0
  0
LINE
  5
8F
330
1F
100
AcDbEntity
  8
0
  6
Continuous
 62
     7
370
    25
100
AcDbLine
 10
270.567193351
 20
402.0646849034
 30
0.0
 11
20.567193351
 21
402.0646849034
 31
0.0
  0
LINE
  5
90
330
1F
100
AcDbEntity
  8
0
  6
Continuous
 62
     7
370
    25
100
AcDbLine
 10
270.567193351
 20
457.0646849034
 30
0.0
 11
20.567193351
 21
457.0646849034
 31
0.0
  0
LINE
  5
91
330
1F
100
AcDbEntity
  8
0
  6
Continuous
 62
     7
370
    25
100
AcDbLine
 10
-143.2845864108
 20
271.0931302271
 30
0.0
 11
-168.2845864108
 21
271.0931302271
 31
0.0
  0
LINE
  5
92
330
1F
100
AcDbEntity
  8
0
  6
Continuous
 62
     7
370
    25
100
AcDbLine
 10
-168.2845864108
 20
-48.9068697729
 30
0.0
 11
-143.2845864108
 21
-48.9068697729
 31
0.0
  0
LINE
  5
93
330
1F
100
AcDbEntity
  8
0
  6
Continuous
 62
     7
370
    25
100
AcDbLine
 10
-168.2845864108
 20
255.0931302271
 30
0.0
 11
-208.2845864108
 21
236.0931302271
 31
0.0
  0
LINE
  5
94
330
1F
100
AcDbEntity
  8
0
  6
Continuous
 62
     7
370
    25
100
AcDbLine
 10
-208.2845864108
 20
-13.9068697729
 30
0.0
 11
-168.2845864108
 21
-32.9068697729
 31
0.0
  0
LINE
  5
95
330
1F
100
AcDbEntity
  8
0
  6
Continuous
 62
     7
370
    25
100
AcDbLine
 10
-208.2845864108
 20
236.0931302271
 30
0.0
 11
-263.2845864108
 21
236.0931302271
 31
0.0
  0
LINE
  5
96
330
1F
100
AcDbEntity
  8
0
  6
Continuous
 62
     7
370
    25
100
AcDbLine
 10
-263.2845864108
 20
-13.9068697729
 30
0.0
 11
-208.2845864108
 21
-13.9068697729
 31
0.0
  0
LINE
  5
97
330
1F
100
AcDbEntity
  8
0
  6
Continuous
 62
     7
370
    25
100
AcDbLine
 10
-143.2845864108
 20
271.0931302271
 30
0.0
 11
-143.2845864108
 21
-48.9068697729
 31
0.0
  0
LINE
  5
98
330
1F
100
AcDbEntity
  8
0
  6
Continuous
 62
     7
370
    25
100
AcDbLine
 10
-168.2845864108
 20
271.0931302271
 30
0.0
 11
-168.2845864108
 21
-48.9068697729
 31
0.0
  0
LINE
  5
99
330
1F
100
AcDbEntity
  8
0
  6
Continuous
 62
     7
370
    25
100
AcDbLine
 10
-208.2845864108
 20
236.0931302271
 30
0.0
 11
-208.2845864108
 21
-13.9068697729
 31
0.0
  0
LINE
  5
9A
330
1F
100
AcDbEntity
  8
0
  6
Continuous
 62
     7
370
    25
100
AcDbLine
 10
-263.2845864108
 20
236.0931302271
 30
0.0
 11
-263.2845864108
 21
-13.9068697729
 31
0.0
  0
LINE
  5
9B
330
1F
100
AcDbEntity
  8
0
  6
Continuous
 62
     7
370
    25
100
AcDbLine
 10
-14.432806649
 20
-191.5540849402
 30
0.0
 11
-14.432806649
 21
-216.5540849402
 31
0.0
  0
LINE
  5
9C
330
1F
100
AcDbEntity
  8
0
  6
Continuous
 62
     7
370
    25
100
AcDbLine
 10
305.567193351
 20
-216.5540849402
 30
0.0
 11
305.567193351
 21
-191.5540849402
 31
0.0
  0
LINE
  5
9D
330
1F
100
AcDbEntity
  8
0
  6
Continuous
 62
     7
370
    25
100
AcDbLine
 10
1.567193351
 20
-216.5540849402
 30
0.0
 11
20.567193351
 21
-256.5540849402
 31
0.0
  0
LINE
  5
9E
330
1F
100
AcDbEntity
  8
0
  6
Continuous
 62
     7
370
    25
100
AcDbLine
 10
270.567193351
 20
-256.5540849402
 30
0.0
 11
289.567193351
 21
-216.5540849402
 31
0.0
  0
LINE
  5
9F
330
1F
100
AcDbEntity
  8
0
  6
Continuous
 62
     7
370
    25
100
AcDbLine
 10
20.567193351
 20
-256.5540849402
 30
0.0
 11
20.567193351
 21
-311.5540849402
 31
0.0
  0
LINE
  5
A0
330
1F
100
AcDbEntity
  8
0
  6
Continuous
 62
     7
370
    25
100
AcDbLine
 10
270.567193351
 20
-311.5540849402
 30
0.0
 11
270.567193351
 21
-256.5540849402
 31
0.0
  0
LINE
  5
A1
330
1F
100
AcDbEntity
  8
0
  6
Continuous
 62
     7
370
    25
100
AcDbLine
 10
-14.432806649
 20
-191.5540849402
 30
0.0
 11
305.567193351
 21
-191.5540849402
 31
0.0
  0
LINE
  5
A2
330
1F
100
AcDbEntity
  8
0
  6
Continuous
 62
     7
370
    25
100
AcDbLine
 10
-14.432806649
 20
-216.5540849402
 30
0.0
 11
305.567193351
 21
-216.5540849402
 31
0.0
  0
LINE
  5
A3
330
1F
100
AcDbEntity
  8
0
  6
Continuous
 62
     7
370
    25
100
AcDbLine
 10
20.567193351
 20
-256.5540849402
 30
0.0
 11
270.567193351
 21
-256.5540849402
 31
0.0
  0
LINE
  5
A4
330
1F
100
AcDbEntity
  8
0
  6
Continuous
 62
     7
370
    25
100
AcDbLine
 10
20.567193351
 20
-311.5540849402
 30
0.0
 11
270.567193351
 21
-311.5540849402
 31
0.0
  0
LINE
  5
A5
330
1F
100
AcDbEntity
  8
0
  6
Continuous
 62
     7
370
    25
100
AcDbLine
 10
428.3383615229
 20
-48.9068697729
 30
0.0
 11
453.3383615229
 21
-48.9068697729
 31
0.0
  0
LINE
  5
A6
330
1F
100
AcDbEntity
  8
0
  6
Continuous
 62
     7
370
    25
100
AcDbLine
 10
453.3383615229
 20
271.0931302271
 30
0.0
 11
428.3383615229
 21
271.0931302271
 31
0.0
  0
LINE
  5
A7
330
1F
100
AcDbEntity
  8
0
  6
Continuous
 62
     7
370
    25
100
AcDbLine
 10
453.3383615229
 20
-32.9068697729
 30
0.0
 11
493.3383615229
 21
-13.9068697729
 31
0.0
  0
LINE
  5
A8
330
1F
100
AcDbEntity
  8
0
  6
Continuous
 62
     7
370
    25
100
AcDbLine
 10
493.3383615229
 20
236.0931302271
 30
0.0
 11
453.3383615229
 21
255.0931302271
 31
0.0
  0
LINE
  5
A9
330
1F
100
AcDbEntity
  8
0
  6
Continuous
 62
     7
370
    25
100
AcDbLine
 10
493.3383615229
 20
-13.9068697729
 30
0.0
 11
548.3383615229
 21
-13.9068697729
 31
0.0
  0
LINE
  5
AA
330
1F
100
AcDbEntity
  8
0
  6
Continuous
 62
     7
370
    25
100
AcDbLine
 10
548.3383615229
 20
236.0931302271
 30
0.0
 11
493.3383615229
 21
236.0931302271
 31
0.0
  0
LINE
  5
AB
330
1F
100
AcDbEntity
  8
0
  6
Continuous
 62
     7
370
    25
100
AcDbLine
 10
428.3383615229
 20
111.0931302271
 30
0.0
 11
428.3383615229
 21
271.0931302271
 31
0.0
  0
LINE
  5
AC
330
1F
100
AcDbEntity
  8
0
  6
Continuous
 62
     7
370
    25
100
AcDbLine
 10
428.3383615229
 20
-48.9068697729
 30
0.0
 11
428.3383615229
 21
111.0931302271
 31
0.0
  0
LINE
  5
AD
330
1F
100
AcDbEntity
  8
0
  6
Continuous
 62
     7
370
    25
100
AcDbLine
 10
453.3383615229
 20
111.0931302271
 30
0.0
 11
453.3383615229
 21
271.0931302271
 31
0.0
  0
LINE
  5
AE
330
1F
100
AcDbEntity
  8
0
  6
Continuous
 62
     7
370
    25
100
AcDbLine
 10
453.3383615229
 20
-48.9068697729
 30
0.0
 11
453.3383615229
 21
111.0931302271
 31
0.0
  0
LINE
  5
AF
330
1F
100
AcDbEntity
  8
0
  6
Continuous
 62
     7
370
    25
100
AcDbLine
 10
493.3383615229
 20
111.0931302271
 30
0.0
 11
493.3383615229
 21
236.0931302271
 31
0.0
  0
LINE
  5
B0
330
1F
100
AcDbEntity
  8
0
  6
Continuous
 62
     7
370
    25
100
AcDbLine
 10
493.3383615229
 20
-13.9068697729
 30
0.0
 11
493.3383615229
 21
111.0931302271
 31
0.0
  0
LINE
  5
B1
330
1F
100
AcDbEntity
  8
0
  6
Continuous
 62
     7
370
    25
100
AcDbLine
 10
548.3383615229
 20
111.0931302271
 30
0.0
 11
548.3383615229
 21
236.0931302271
 31
0.0
  0
LINE
  5
B2
330
1F
100
AcDbEntity
  8
0
  6
Continuous
 62
     7
370
    25
100
AcDbLine
 10
548.3383615229
 20
-13.9068697729
 30
0.0
 11
548.3383615229
 21
111.0931302271
 31
0.0
  0
LINE
  5
B3
330
1F
100
AcDbEntity
  8
0
  6
Continuous
 62
     7
370
    25
100
AcDbLine
 10
557.3786130719
 20
-139.5818786464
 30
0.0
 11
518.4877401066
 21
-117.1306555713
 31
0.0
  0
LINE
  5
B4
330
1F
100
AcDbEntity
  8
0
  6
Continuous
 62
     7
370
    25
100
AcDbLine
 10
393.4978985271
 20
-333.6428711665
 30
0.0
 11
432.3887714924
 21
-356.0940942416
 31
0.0
  0
LINE
  5
B5
330
1F
100
AcDbEntity
  8
0
  6
Continuous
 62
     7
370
    25
100
AcDbLine
 10
566.7920235743
 20
-132.7384026862
 30
0.0
 11
546.5666858941
 21
-133.3402859427
 31
0.0
  0
LINE
  5
B6
330
1F
100
AcDbEntity
  8
0
  6
Continuous
 62
     7
370
    25
100
AcDbLine
 10
421.5768443146
 20
-349.8525015379
 30
0.0
 11
431.1699387996
 21
-367.6681992771
 31
0.0
  0
LINE
  5
B7
330
1F
100
AcDbEntity
  8
0
  6
Continuous
 62
     7
370
    25
100
AcDbLine
 10
620.8391316701
 20
-135.8034320973
 30
0.0
 11
603.1614621405
 21
-125.5983306995
 31
0.0
  0
LINE
  5
B8
330
1F
100
AcDbEntity
  8
0
  6
Continuous
 62
     7
370
    25
100
AcDbLine
 10
443.1744649187
 20
-402.7339666614
 30
0.0
 11
460.8521344484
 21
-412.9390680591
 31
0.0
  0
LWPOLYLINE
  5
B9
330
1F
100
AcDbEntity
  8
0
  6
Continuous
 62
     7
370
    25
100
AcDbPolyline
 90
      125
 70
   128
 43
0.0
 10
367.6044716685
 20
-276.4122703578
 10
367.7179174789
 20
-271.1771403049
 10
368.0579636962
 20
-265.8244670111
 10
368.6237374268
 20
-260.367990712
 10
369.4137863375
 20
-254.821718104
 10
370.4260823841
 20
-249.1998863894
 10
371.6580270173
 20
-243.5169267296
 10
373.1064578527
 20
-237.7874272004
 10
374.7676567892
 20
-232.026095345
 10
376.637359553
 20
-226.2477204196
 10
378.7107666439
 20
-220.4671354298
 10
380.9825556557
 20
-214.6991790544
 10
383.4468949384
 20
-208.9586575547
 10
386.0974585686
 20
-203.260306767
 10
388.9274425873
 20
-197.618754276
 10
391.9295824663
 20
-192.0484818661
 10
395.0961717554
 20
-186.5637883467
 10
398.4190818655
 20
-181.1787528473
 10
401.8897829338
 20
-175.907198677
 10
405.4993657206
 20
-170.7626578396
 10
409.2385644786
 20
-165.7583362976
 10
413.0977807382
 20
-160.9070800727
 10
417.0671079467
 20
-156.2213422701
 10
421.136356898
 20
-151.7131511114
 10
425.2950818883
 20
-147.3940790588
 10
429.5326075304
 20
-143.2752131083
 10
433.8380561566
 20
-139.3671263296
 10
438.2003757422
 20
-135.6798507254
 10
442.6083682752
 20
-132.2228514795
 10
447.050718502
 20
-129.0050026592
 10
451.5160229734
 20
-126.0345644363
 10
455.9928193169
 20
-123.3191618832
 10
460.4696156603
 20
-120.8657653992
 10
464.9349201317
 20
-118.6806728179
 10
469.3772703585
 20
-116.7694932407
 10
473.7852628915
 20
-115.1371326381
 10
478.1475824771
 20
-113.7877812564
 10
482.4530311033
 20
-112.7249028613
 10
486.6905567454
 20
-111.9512258462
 10
490.8492817358
 20
-111.468736229
 10
494.918530687
 20
-111.2786725537
 10
498.8878578955
 20
-111.381522711
 10
502.7470741551
 20
-111.7770226859
 10
506.4862729131
 20
-112.4641572358
 10
510.0958556999
 20
-113.4411624961
 10
513.5665567683
 20
-114.7055305083
 10
516.8894668783
 20
-116.2540156578
 10
520.0560561675
 20
-118.0826430055
 10
523.0581960464
 20
-120.1867184913
 10
525.8881800652
 20
-122.5608409834
 10
528.5387436953
 20
-125.1989161436
 10
531.0030829781
 20
-128.0941720706
 10
533.2748719898
 20
-131.2391766842
 10
535.3482790807
 20
-134.6258568025
 10
537.2179818445
 20
-138.2455188663
 10
538.879180781
 20
-142.0888712549
 10
540.3276116165
 20
-146.1460481379
 10
541.5595562496
 20
-150.4066348004
 10
542.5718522962
 20
-154.8596943776
 10
543.3619012069
 20
-159.4937959293
 10
543.9276749375
 20
-164.2970437835
 10
544.2677211548
 20
-169.2571080717
 10
544.3811669652
 20
-174.36125638
 10
544.2677211548
 20
-179.5963864329
 10
543.9276749375
 20
-184.9490597267
 10
543.3619012069
 20
-190.4055360258
 10
542.5718522962
 20
-195.9518086337
 10
541.5595562496
 20
-201.5736403483
 10
540.3276116165
 20
-207.2566000082
 10
538.879180781
 20
-212.9860995374
 10
537.2179818445
 20
-218.7474313928
 10
535.3482790807
 20
-224.5258063182
 10
533.2748719898
 20
-230.3063913079
 10
531.0030829781
 20
-236.0743476833
 10
528.5387436953
 20
-241.8148691831
 10
525.8881800652
 20
-247.5132199708
 10
523.0581960464
 20
-253.1547724618
 10
520.0560561675
 20
-258.7250448717
 10
516.8894668783
 20
-264.2097383911
 10
513.5665567683
 20
-269.5947738904
 10
510.0958556999
 20
-274.8663280608
 10
506.4862729131
 20
-280.0108688982
 10
502.7470741551
 20
-285.0151904402
 10
498.8878578955
 20
-289.866446665
 10
494.918530687
 20
-294.5521844677
 10
490.8492817358
 20
-299.0603756263
 10
486.6905567454
 20
-303.3794476789
 10
482.4530311033
 20
-307.4983136295
 10
478.1475824771
 20
-311.4064004082
 10
473.7852628915
 20
-315.0936760123
 10
469.3772703585
 20
-318.5506752583
 10
464.9349201317
 20
-321.7685240786
 10
460.4696156603
 20
-324.7389623015
 10
455.9928193169
 20
-327.4543648546
 10
451.5160229734
 20
-329.9077613386
 10
447.050718502
 20
-332.0928539198
 10
442.6083682752
 20
-334.004033497
 10
438.2003757422
 20
-335.6363940996
 10
433.8380561566
 20
-336.9857454813
 10
429.5326075304
 20
-338.0486238765
 10
425.2950818883
 20
-338.8223008916
 10
421.136356898
 20
-339.3047905087
 10
417.0671079467
 20
-339.494854184
 10
413.0977807382
 20
-339.3920040268
 10
409.2385644786
 20
-338.9965040518
 10
405.4993657206
 20
-338.3093695019
 10
401.8897829338
 20
-337.3323642417
 10
398.4190818655
 20
-336.0679962295
 10
395.0961717554
 20
-334.5195110799
 10
391.9295824663
 20
-332.6908837322
 10
388.9274425873
 20
-330.5868082465
 10
386.0974585686
 20
-328.2126857544
 10
383.4468949384
 20
-325.5746105942
 10
380.9825556557
 20
-322.6793546671
 10
378.7107666439
 20
-319.5343500536
 10
376.637359553
 20
-316.1476699353
 10
374.7676567892
 20
-312.5280078715
 10
373.1064578527
 20
-308.6846554829
 10
371.6580270173
 20
-304.6274785999
 10
370.4260823841
 20
-300.3668919374
 10
369.4137863375
 20
-295.9138323602
 10
368.6237374268
 20
-291.2797308084
 10
368.0579636962
 20
-286.4764829543
 10
367.7179174789
 20
-281.5164186661
 10
367.6044716685
 20
-276.4122703578
  0
LWPOLYLINE
  5
BA
330
1F
100
AcDbEntity
  8
0
  6
Continuous
 62
     7
370
    25
100
AcDbPolyline
 90
      117
 70
   128
 43
0.0
 10
378.0696520301
 20
-270.3708503303
 10
378.1839330679
 20
-265.433306845
 10
378.5264409754
 20
-260.3782999477
 10
379.0961711178
 20
-255.2206568447
 10
379.8914523786
 20
-249.9755057918
 10
380.9099520606
 20
-244.6582317207
 10
382.148682729
 20
-239.2844311126
 10
383.6040109731
 20
-233.8698662505
 10
385.2716680645
 20
-228.4304189859
 10
387.1467624776
 20
-222.9820441551
 10
389.2237942375
 20
-217.54072278
 10
391.4966710521
 20
-212.1224151938
 10
393.958726182
 20
-206.7430142262
 10
396.6027379955
 20
-201.4182985872
 10
399.4209511503
 20
-196.163886585
 10
402.4050993416
 20
-190.9951903156
 10
405.5464295487
 20
-185.9273704554
 10
408.8357277087
 20
-180.9752917935
 10
412.2633457435
 20
-176.1534796296
 10
415.8192298587
 20
-171.4760771698
 10
419.4929500337
 20
-166.9568040413
 10
423.2737306141
 20
-162.6089160508
 10
427.1504819191
 20
-158.445166303
 10
431.1118327692
 20
-154.4777677933
 10
435.1461638397
 20
-150.718357585
 10
439.2416417426
 20
-147.1779626762
 10
443.3862537355
 20
-143.8669676549
 10
447.5678429573
 20
-140.7950842402
 10
451.7741440864
 20
-137.9713227953
 10
455.9928193169
 20
-135.4039658991
 10
460.2114945473
 20
-133.1005440517
 10
464.4177956764
 20
-131.0678135862
 10
468.5993848982
 20
-129.3117368515
 10
472.7439968911
 20
-127.837464723
 10
476.839474794
 20
-126.6493214949
 10
480.8738058646
 20
-125.7507921962
 10
484.8351567146
 20
-125.1445123679
 10
488.7119080196
 20
-124.8322603333
 10
492.4926886
 20
-124.8149519814
 10
496.166408775
 20
-125.0926380807
 10
499.7222928903
 20
-125.6645041298
 10
503.149910925
 20
-126.5288727473
 10
506.4392090851
 20
-127.6832085909
 10
509.5805392921
 20
-129.1241257948
 10
512.5646874834
 20
-130.8473979005
 10
515.3829006382
 20
-132.8479702541
 10
518.0269124517
 20
-135.1199748321
 10
520.4889675816
 20
-137.6567474536
 10
522.7618443962
 20
-140.4508473275
 10
524.8388761561
 20
-143.4940788774
 10
526.7139705692
 20
-146.7775157809
 10
528.3816276606
 20
-150.2915271517
 10
529.8369559048
 20
-154.0258057891
 10
531.0756865731
 20
-157.9693984104
 10
532.0941862551
 20
-162.110737779
 10
532.8894675159
 20
-166.437676633
 10
533.4591976583
 20
-170.9375233151
 10
533.8017055658
 20
-175.5970789998
 10
533.9159866036
 20
-180.4026764074
 10
533.8017055658
 20
-185.3402198928
 10
533.4591976583
 20
-190.3952267901
 10
532.8894675159
 20
-195.5528698931
 10
532.0941862551
 20
-200.798020946
 10
531.0756865731
 20
-206.115295017
 10
529.8369559048
 20
-211.4890956251
 10
528.3816276606
 20
-216.9036604873
 10
526.7139705692
 20
-222.3431077518
 10
524.8388761561
 20
-227.7914825827
 10
522.7618443962
 20
-233.2328039578
 10
520.4889675816
 20
-238.6511115439
 10
518.0269124517
 20
-244.0305125115
 10
515.3829006382
 20
-249.3552281506
 10
512.5646874834
 20
-254.6096401527
 10
509.5805392921
 20
-259.7783364222
 10
506.4392090851
 20
-264.8461562823
 10
503.149910925
 20
-269.7982349443
 10
499.7222928903
 20
-274.6200471081
 10
496.166408775
 20
-279.297449568
 10
492.4926886
 20
-283.8167226965
 10
488.7119080196
 20
-288.164610687
 10
484.8351567146
 20
-292.3283604348
 10
480.8738058646
 20
-296.2957589445
 10
476.839474794
 20
-300.0551691527
 10
472.7439968911
 20
-303.5955640616
 10
468.5993848982
 20
-306.9065590828
 10
464.4177956764
 20
-309.9784424976
 10
460.2114945473
 20
-312.8022039425
 10
455.9928193169
 20
-315.3695608387
 10
451.7741440864
 20
-317.6729826861
 10
447.5678429573
 20
-319.7057131515
 10
443.3862537355
 20
-321.4617898863
 10
439.2416417426
 20
-322.9360620148
 10
435.1461638397
 20
-324.1242052428
 10
431.1118327692
 20
-325.0227345416
 10
427.1504819191
 20
-325.6290143699
 10
423.2737306141
 20
-325.9412664045
 10
419.4929500337
 20
-325.9585747563
 10
415.8192298587
 20
-325.6808886571
 10
412.2633457435
 20
-325.1090226079
 10
408.8357277087
 20
-324.2446539905
 10
405.5464295487
 20
-323.0903181469
 10
402.4050993416
 20
-321.649400943
 10
399.4209511503
 20
-319.9261288373
 10
396.6027379955
 20
-317.9255564837
 10
393.958726182
 20
-315.6535519057
 10
391.4966710521
 20
-313.1167792842
 10
389.2237942375
 20
-310.3226794103
 10
387.1467624776
 20
-307.2794478603
 10
385.2716680645
 20
-303.9960109569
 10
383.6040109731
 20
-300.4819995861
 10
382.148682729
 20
-296.7477209487
 10
380.9099520606
 20
-292.8041283274
 10
379.8914523786
 20
-288.6627889588
 10
379.0961711178
 20
-284.3358501048
 10
378.5264409754
 20
-279.8360034226
 10
378.1839330679
 20
-275.1764477379
 10
378.0696520301
 20
-270.3708503303
  0
LWPOLYLINE
  5
BB
330
1F
100
AcDbEntity
  8
0
  6
Continuous
 62
     7
370
    25
100
AcDbPolyline
 90
       64
 70
   128
 43
0.0
 10
557.3786130719
 20
-139.5818786464
 10
558.9469291327
 20
-140.5338660807
 10
561.9490690117
 20
-142.6379415664
 10
564.7790530304
 20
-145.0120640585
 10
567.4296166606
 20
-147.6501392187
 10
569.8939559433
 20
-150.5453951458
 10
572.165744955
 20
-153.6903997593
 10
574.2391520459
 20
-157.0770798776
 10
576.1088548097
 20
-160.6967419414
 10
577.7700537463
 20
-164.54009433
 10
579.2184845817
 20
-168.597271213
 10
580.4504292148
 20
-172.8578578755
 10
581.4627252615
 20
-177.3109174527
 10
582.2527741722
 20
-181.9450190045
 10
582.8185479027
 20
-186.7482668586
 10
583.1585941201
 20
-191.7083311468
 10
583.2720399304
 20
-196.8124794551
 10
583.1585941201
 20
-202.047609508
 10
582.8185479027
 20
-207.4002828018
 10
582.2527741722
 20
-212.8567591009
 10
581.4627252615
 20
-218.4030317088
 10
580.4504292148
 20
-224.0248634235
 10
579.2184845817
 20
-229.7078230833
 10
577.7700537463
 20
-235.4373226125
 10
576.1088548097
 20
-241.1986544679
 10
574.2391520459
 20
-246.9770293933
 10
572.165744955
 20
-252.757614383
 10
569.8939559433
 20
-258.5255707584
 10
567.4296166606
 20
-264.2660922582
 10
564.7790530304
 20
-269.9644430459
 10
561.9490690117
 20
-275.6059955369
 10
558.9469291327
 20
-281.1762679468
 10
555.7803398436
 20
-286.6609614662
 10
552.4574297335
 20
-292.0459969655
 10
548.9867286652
 20
-297.3175511359
 10
545.3771458784
 20
-302.4620919733
 10
541.6379471203
 20
-307.4664135153
 10
537.7787308607
 20
-312.3176697402
 10
533.8094036523
 20
-317.0034075428
 10
529.740154701
 20
-321.5115987014
 10
525.5814297107
 20
-325.8306707541
 10
521.3439040686
 20
-329.9495367046
 10
517.0384554423
 20
-333.8576234833
 10
512.6761358568
 20
-337.5448990874
 10
508.2681433238
 20
-341.0018983334
 10
503.8257930969
 20
-344.2197471537
 10
499.3604886255
 20
-347.1901853766
 10
494.8836922821
 20
-349.9055879297
 10
490.4068959387
 20
-352.3589844137
 10
485.9415914673
 20
-354.544076995
 10
481.4992412404
 20
-356.4552565722
 10
477.0912487074
 20
-358.0876171747
 10
472.7289291219
 20
-359.4369685564
 10
468.4234804957
 20
-360.4998469516
 10
464.1859548536
 20
-361.2735239667
 10
460.0272298632
 20
-361.7560135838
 10
455.957980912
 20
-361.9460772592
 10
451.9886537035
 20
-361.8432271019
 10
448.1294374439
 20
-361.4477271269
 10
444.3902386859
 20
-360.7605925771
 10
440.7806558991
 20
-359.7835873168
 10
437.3099548307
 20
-358.5192193046
 10
433.9870447207
 20
-356.9707341551
 10
432.3887714924
 20
-356.0940942416
  0
LWPOLYLINE
  5
BC
330
1F
100
AcDbEntity
  8
0
  6
Continuous
 62
     7
370
    25
100
AcDbPolyline
 90
       83
 70
   128
 43
0.0
 10
566.7920235743
 20
-132.7384026862
 10
568.4278559609
 20
-132.7104674262
 10
572.6847714154
 20
-132.8386748007
 10
576.8311955094
 20
-133.2599251216
 10
580.8578759492
 20
-133.9732784145
 10
584.7558276364
 20
-134.9771429093
 10
588.5163527165
 20
-136.2692785919
 10
592.1310599876
 20
-137.8468022022
 10
595.5918836243
 20
-139.7061936683
 10
598.8911011759
 20
-141.8433039607
 10
602.021350798
 20
-144.2533643507
 10
604.9756476795
 20
-146.9309970512
 10
607.7473996291
 20
-149.8702272166
 10
610.3304217842
 20
-153.0644962751
 10
612.7189504125
 20
-156.5066765633
 10
614.9076557726
 20
-160.1890872312
 10
616.8916540069
 20
-164.1035113806
 10
618.6665180397
 20
-168.2412144006
 10
620.2282874552
 20
-172.5929634578
 10
621.5734773353
 20
-177.1490480984
 10
622.6990860353
 20
-181.8993019161
 10
623.602601882
 20
-186.8331252372
 10
624.2820087783
 20
-191.9395087725
 10
624.7357907018
 20
-197.2070581837
 10
624.9629350875
 20
-202.6240195084
 10
624.9629350875
 20
-208.1783053876
 10
624.7357907018
 20
-213.8575220377
 10
624.2820087783
 20
-219.6489969057
 10
623.602601882
 20
-225.5398069466
 10
622.6990860353
 20
-231.5168074596
 10
621.5734773353
 20
-237.5666614195
 10
620.2282874552
 20
-243.6758692365
 10
618.6665180397
 20
-249.8307988791
 10
616.8916540069
 20
-256.0177162926
 10
614.9076557726
 20
-262.2228160449
 10
612.7189504125
 20
-268.4322521323
 10
610.3304217842
 20
-274.6321688747
 10
607.7473996291
 20
-280.8087318336
 10
604.9756476795
 20
-286.9481586818
 10
602.021350798
 20
-293.0367499575
 10
598.8911011759
 20
-299.0609196326
 10
595.5918836243
 20
-305.0072254291
 10
592.1310599876
 20
-310.8623988136
 10
588.5163527165
 20
-316.6133746047
 10
584.7558276364
 20
-322.2473201267
 10
580.8578759492
 20
-327.7516638442
 10
576.8311955094
 20
-333.1141234139
 10
572.6847714154
 20
-338.3227330918
 10
568.4278559609
 20
-343.3658704329
 10
564.0699479887
 20
-348.2322822259
 10
559.6207716955
 20
-352.9111096032
 10
555.0902549335
 20
-357.3919122714
 10
550.488507057
 20
-361.6646918076
 10
545.8257963649
 20
-365.7199139699
 10
541.1125271881
 20
-369.548529972
 10
536.3592166729
 20
-373.1419966746
 10
531.576471314
 20
-376.4922956482
 10
526.7749632862
 20
-379.5919510659
 10
521.9654066316
 20
-382.4340463843
 10
517.1585333517
 20
-385.0122397774
 10
512.3650694603
 20
-387.3207782878
 10
507.5957110497
 20
-389.3545106632
 10
502.8611004235
 20
-391.1088988516
 10
498.1718023494
 20
-392.5800281268
 10
493.5382804849
 20
-393.7646158242
 10
488.9708740292
 20
-394.6600186654
 10
484.479774652
 20
-395.2642386566
 10
480.0750037522
 20
-395.5759275468
 10
475.7663900959
 20
-395.594389836
 10
471.5635478851
 20
-395.3195843278
 10
467.4758553041
 20
-394.7521242207
 10
463.5124335934
 20
-393.8932757401
 10
459.6821266967
 20
-392.7449553127
 10
455.9934815264
 20
-391.3097252904
 10
452.4547288922
 20
-389.5907882327
 10
449.0737651349
 20
-387.5919797603
 10
445.8581345068
 20
-385.3177599964
 10
442.8150123371
 20
-382.7732036147
 10
439.9511890214
 20
-379.9639885153
 10
437.2730548693
 20
-376.8963831556
 10
434.7865858453
 20
-373.5772325627
 10
432.497330234
 20
-370.0139430594
 10
431.1699387996
 20
-367.6681992771
  0
LWPOLYLINE
  5
BD
330
1F
100
AcDbEntity
  8
0
  6
Continuous
 62
     7
370
    25
100
AcDbPolyline
 90
      102
 70
   128
 43
0.0
 10
535.7213654747
 20
-127.079415731
 10
538.3547239329
 20
-125.9348708313
 10
543.3693701119
 20
-123.9571384756
 10
548.3433333466
 20
-122.261768407
 10
553.2665967369
 20
-120.8521748753
 10
558.1292454855
 20
-119.7311966142
 10
562.921486865
 20
-118.9010911248
 10
567.6336699389
 20
-118.363530129
 10
572.2563049978
 20
-118.1195962032
 10
576.7800826698
 20
-118.1697805979
 10
581.1958926687
 20
-118.5139822483
 10
585.4948421408
 20
-119.1515079781
 10
589.668273574
 20
-120.0810738953
 10
593.7077822328
 20
-121.300807978
 10
597.6052330843
 20
-122.8082538439
 10
601.3527771813
 20
-124.6003756978
 10
604.9428674686
 20
-126.6735644446
 10
608.3682739823
 20
-129.0236449583
 10
611.6220984093
 20
-131.6458844893
 10
614.6977879804
 20
-134.5350021962
 10
617.5891486661
 20
-137.6851797805
 10
620.2903576507
 20
-141.0900732038
 10
622.7959750589
 20
-144.7428254638
 10
625.1009549107
 20
-148.6360804035
 10
627.2006552833
 20
-152.7619975258
 10
629.0908476596
 20
-157.1122677825
 10
630.7677254438
 20
-161.6781303083
 10
632.2279116272
 20
-166.4503900637
 10
633.4684655891
 20
-171.4194363528
 10
634.4868890189
 20
-176.5752621774
 10
635.2811309474
 20
-181.9074843907
 10
635.849591877
 20
-187.4053646067
 10
636.1911270031
 20
-193.0578308262
 10
636.3050485194
 20
-198.8534997346
 10
636.1911270031
 20
-204.7806996261
 10
635.849591877
 20
-210.8274939087
 10
635.2811309474
 20
-216.9817051436
 10
634.4868890189
 20
-223.2309395684
 10
633.4684655891
 20
-229.5626120565
 10
632.2279116272
 20
-235.9639714623
 10
630.7677254438
 20
-242.4221262998
 10
629.0908476596
 20
-248.9240707046
 10
627.2006552833
 20
-255.456710626
 10
625.1009549107
 20
-262.0068901965
 10
622.7959750589
 20
-268.5614182263
 10
620.2903576507
 20
-275.1070947682
 10
617.5891486661
 20
-281.6307377006
 10
614.6977879804
 20
-288.1192092751
 10
611.6220984093
 20
-294.5594425732
 10
608.3682739823
 20
-300.9384678222
 10
604.9428674686
 20
-307.2434385143
 10
601.3527771813
 20
-313.4616572774
 10
597.6052330843
 20
-319.5806014467
 10
593.7077822328
 20
-325.5879482827
 10
589.668273574
 20
-331.4715997886
 10
585.4948421408
 20
-337.219707073
 10
581.1958926687
 20
-342.8206942131
 10
576.7800826698
 20
-348.263281566
 10
572.2563049978
 20
-353.5365084851
 10
567.6336699389
 20
-358.6297553932
 10
562.921486865
 20
-363.5327651689
 10
558.1292454855
 20
-368.2356638029
 10
553.2665967369
 20
-372.7289802834
 10
548.3433333466
 20
-377.0036656688
 10
543.3693701119
 20
-381.0511113117
 10
538.3547239329
 20
-384.8631661952
 10
533.3094936394
 20
-388.4321533481
 10
528.243839654
 20
-391.7508853053
 10
523.1679635296
 20
-394.8126785822
 10
518.0920874052
 20
-397.6113671347
 10
513.0264334197
 20
-400.1413147764
 10
507.9812031263
 20
-402.3974265296
 10
502.9665569472
 20
-404.3751588853
 10
497.9925937125
 20
-406.0705289539
 10
493.0693303223
 20
-407.4801224857
 10
488.2066815737
 20
-408.6011007467
 10
483.4144401942
 20
-409.4312062361
 10
478.7022571202
 20
-409.9687672319
 10
474.0796220613
 20
-410.2127011577
 10
469.5558443893
 20
-410.162516763
 10
465.1400343905
 20
-409.8183151126
 10
460.8410849184
 20
-409.1807893828
 10
456.6676534852
 20
-408.2512234656
 10
452.6281448264
 20
-407.0314893829
 10
448.7306939748
 20
-405.524043517
 10
444.9831498778
 20
-403.7319216631
 10
441.3930595905
 20
-401.6587329163
 10
437.9676530769
 20
-399.3086524026
 10
434.7138286499
 20
-396.6864128716
 10
431.6381390788
 20
-393.7972951647
 10
428.7467783931
 20
-390.6471175804
 10
426.0455694084
 20
-387.2422241571
 10
423.5399520002
 20
-383.5894718971
 10
421.2349721485
 20
-379.6962169574
 10
419.1352717759
 20
-375.5702998351
 10
417.2450793996
 20
-371.2200295784
 10
415.5682016153
 20
-366.6541670526
 10
414.108015432
 20
-361.8819072972
 10
412.8674614701
 20
-356.9128610081
 10
411.8490380403
 20
-351.7570351835
 10
411.0547961118
 20
-346.4248129702
 10
410.7315238952
 20
-343.5916313262
  0
LWPOLYLINE
  5
BE
330
1F
100
AcDbEntity
  8
0
  6
Continuous
 62
     7
370
    25
100
AcDbPolyline
 90
       72
 70
   128
 43
0.0
 10
620.8391316701
 20
-135.8034320973
 10
622.6205369983
 20
-136.8786658424
 10
626.0459435119
 20
-139.2287463561
 10
629.299767939
 20
-141.8509858871
 10
632.3754575101
 20
-144.740103594
 10
635.2668181958
 20
-147.8902811783
 10
637.9680271804
 20
-151.2951746016
 10
640.4736445886
 20
-154.9479268616
 10
642.7786244403
 20
-158.8411818013
 10
644.8783248129
 20
-162.9670989236
 10
646.7685171893
 20
-167.3173691803
 10
648.4453949735
 20
-171.8832317061
 10
649.9055811568
 20
-176.6554914615
 10
651.1461351187
 20
-181.6245377505
 10
652.1645585486
 20
-186.7803635752
 10
652.9588004771
 20
-192.1125857885
 10
653.5272614067
 20
-197.6104660044
 10
653.8687965328
 20
-203.262932224
 10
653.9827180491
 20
-209.0586011324
 10
653.8687965328
 20
-214.9858010238
 10
653.5272614067
 20
-221.0325953065
 10
652.9588004771
 20
-227.1868065414
 10
652.1645585486
 20
-233.4360409662
 10
651.1461351187
 20
-239.7677134543
 10
649.9055811568
 20
-246.1690728601
 10
648.4453949735
 20
-252.6272276976
 10
646.7685171893
 20
-259.1291721024
 10
644.8783248129
 20
-265.6618120238
 10
642.7786244403
 20
-272.2119915943
 10
640.4736445886
 20
-278.7665196241
 10
637.9680271804
 20
-285.3121961659
 10
635.2668181958
 20
-291.8358390984
 10
632.3754575101
 20
-298.3243106728
 10
629.299767939
 20
-304.764543971
 10
626.0459435119
 20
-311.14356922
 10
622.6205369983
 20
-317.4485399121
 10
619.030446711
 20
-323.6667586752
 10
615.282902614
 20
-329.7857028445
 10
611.3854517624
 20
-335.7930496805
 10
607.3459431036
 20
-341.6767011863
 10
603.1725116704
 20
-347.4248084708
 10
598.8735621983
 20
-353.0257956109
 10
594.4577521995
 20
-358.4683829638
 10
589.9339745275
 20
-363.7416098829
 10
585.3113394686
 20
-368.834856791
 10
580.5991563946
 20
-373.7378665667
 10
575.8069150151
 20
-378.4407652007
 10
570.9442662666
 20
-382.9340816811
 10
566.0210028763
 20
-387.2087670665
 10
561.0470396416
 20
-391.2562127094
 10
556.0323934625
 20
-395.068267593
 10
550.9871631691
 20
-398.6372547459
 10
545.9215091837
 20
-401.955986703
 10
540.8456330592
 20
-405.01777998
 10
535.7697569348
 20
-407.8164685324
 10
530.7041029494
 20
-410.3464161742
 10
525.658872656
 20
-412.6025279274
 10
520.6442264769
 20
-414.5802602831
 10
515.6702632422
 20
-416.2756303517
 10
510.7469998519
 20
-417.6852238834
 10
505.8843511033
 20
-418.8062021445
 10
501.0921097239
 20
-419.6363076339
 10
496.3799266499
 20
-420.1738686297
 10
491.757291591
 20
-420.4178025555
 10
487.233513919
 20
-420.3676181608
 10
482.8177039201
 20
-420.0234165104
 10
478.518754448
 20
-419.3858907806
 10
474.3453230149
 20
-418.4563248634
 10
470.305814356
 20
-417.2365907807
 10
466.4083635045
 20
-415.7291449148
 10
462.6608194075
 20
-413.9370230609
 10
460.8521344484
 20
-412.9390680591
  0
LWPOLYLINE
  5
BF
330
1F
100
AcDbEntity
  8
0
  6
Continuous
 62
     7
370
    25
100
AcDbPolyline
 90
       32
 70
   128
 43
0.0
 10
448.921751505
 20
-311.2728967326
 10
449.0360325428
 20
-306.3353532473
 10
449.3785404503
 20
-301.28034635
 10
449.9482705927
 20
-296.122703247
 10
450.7435518535
 20
-290.8775521941
 10
451.7620515355
 20
-285.5602781231
 10
453.0007822038
 20
-280.1864775149
 10
454.456110448
 20
-274.7719126528
 10
456.1237675394
 20
-269.3324653883
 10
457.9988619525
 20
-263.8840905574
 10
460.0758937124
 20
-258.4427691823
 10
462.348770527
 20
-253.0244615961
 10
464.8108256569
 20
-247.6450606286
 10
467.4548374704
 20
-242.3203449895
 10
470.2730506252
 20
-237.0659329874
 10
473.2571988165
 20
-231.8972367179
 10
476.3985290235
 20
-226.8294168577
 10
479.6878271836
 20
-221.8773381958
 10
483.1154452184
 20
-217.0555260319
 10
486.6713293336
 20
-212.3781235721
 10
490.3450495086
 20
-207.8588504436
 10
494.125830089
 20
-203.5109624531
 10
498.002581394
 20
-199.3472127053
 10
501.963932244
 20
-195.3798141956
 10
505.9982633146
 20
-191.6204039873
 10
510.0937412175
 20
-188.0800090785
 10
514.2383532104
 20
-184.7690140572
 10
518.4199424322
 20
-181.6971306425
 10
522.6262435613
 20
-178.8733691976
 10
526.8449187918
 20
-176.3060123014
 10
531.0635940222
 20
-174.002590454
 10
533.5420564555
 20
-172.7727869888
  0
LWPOLYLINE
  5
C0
330
1F
100
AcDbEntity
  8
0
  6
Continuous
 62
     7
370
    25
100
AcDbPolyline
 90
        3
 70
   128
 43
0.0
 10
449.2179277862
 20
-318.9398817379
 10
449.0360325428
 20
-316.0784941402
 10
448.921751505
 20
-311.2728967326
  0
LWPOLYLINE
  5
C1
330
1F
100
AcDbEntity
  8
0
  6
Continuous
 62
     7
370
    25
100
AcDbPolyline
 90
       30
 70
   128
 43
0.0
 10
449.2051053324
 20
-318.945990498
 10
449.3785419217
 20
-316.6049205135
 10
449.9484653121
 20
-311.0241859883
 10
450.7443733835
 20
-305.3523264893
 10
451.764287383
 20
-299.6034431528
 10
453.0056716437
 20
-293.7918286088
 10
454.4654398887
 20
-287.9319314465
 10
456.1399629042
 20
-282.0383202938
 10
458.0250775621
 20
-276.1256475964
 10
460.1160971704
 20
-270.2086131904
 10
462.4078231248
 20
-264.3019277556
 10
464.8945578335
 20
-258.4202762426
 10
467.5701188822
 20
-252.5782813638
 10
470.4278544047
 20
-246.790467239
 10
473.46065962
 20
-241.071223286
 10
476.6609944967
 20
-235.4347684465
 10
480.0209024979
 20
-229.8951158352
 10
483.5320303629
 20
-224.4660379014
 10
487.1856488747
 20
-219.1610321882
 10
490.9726745619
 20
-213.9932877758
 10
494.8836922821
 20
-208.9756524909
 10
498.9089786289
 20
-204.1206009655
 10
503.0385261063
 20
-199.4402036226
 10
507.2620680085
 20
-194.9460966675
 10
511.5691039449
 20
-190.6494531582
 10
515.9489259456
 20
-186.5609552274
 10
520.3906450829
 20
-182.6907675252
 10
524.8832185433
 20
-179.048511948
 10
529.4154770812
 20
-175.6432437171
 10
533.5420564555
 20
-172.7727869888
  0
ENDSEC
  0
SECTION
  2
OBJECTS
  0
DICTIONARY
  5
C
330
0
100
AcDbDictionary
281
     1
  3
ACAD_GROUP
350
D
  3
ACAD_LAYOUT
350
1A
  3
ACAD_MLINESTYLE
350
17
  3
ACAD_PLOTSETTINGS
350
19
  3
ACAD_PLOTSTYLENAME
350
E
  3
ACAD_SCALELIST
350
47
  0
DICTIONARY
  5
D
102
{ACAD_REACTORS
330
C
102
}
330
C
100
AcDbDictionary
281
     1
  0
DICTIONARY
  5
1A
102
{ACAD_REACTORS
330
C
102
}
330
C
100
AcDbDictionary
281
     1
  3
Layout1
350
1E
  3
Layout2
350
26
  3
Model
350
22
  0
DICTIONARY
  5
17
102
{ACAD_REACTORS
330
C
102
}
330
C
100
AcDbDictionary
281
     1
  3
Standard
350
18
  0
DICTIONARY
  5
19
102
{ACAD_REACTORS
330
C
102
}
330
C
100
AcDbDictionary
281
     1
  0
ACDBDICTIONARYWDFLT
  5
E
102
{ACAD_REACTORS
330
C
102
}
330
C
100
AcDbDictionary
281
     1
  3
Normal
350
F
100
AcDbDictionaryWithDefault
340
F
  0
DICTIONARY
  5
47
102
{ACAD_REACTORS
330
C
102
}
330
C
100
AcDbDictionary
281
     1
  3
A0
350
48
  3
A1
350
49
  3
A2
350
4A
  3
A3
350
4B
  3
A4
350
4C
  3
A5
350
4D
  3
A6
350
4E
  3
A7
350
4F
  3
A8
350
50
  3
A9
350
51
  3
B0
350
52
  3
B1
350
53
  3
B2
350
54
  3
B3
350
55
  3
B4
350
56
  3
B5
350
57
  3
B6
350
58
  3
B7
350
59
  3
B8
350
5A
  3
B9
350
5B
  3
C0
350
5C
  3
C1
350
5D
  3
C2
350
5E
  3
C3
350
5F
  3
C4
350
60
  3
C5
350
61
  3
C6
350
62
  3
C7
350
63
  3
C8
350
64
  3
C9
350
65
  3
D0
350
66
  3
D1
350
67
  3
D2
350
68
  0
LAYOUT
  5
1E
102
{ACAD_REACTORS
330
1A
102
}
330
1A
100
AcDbPlotSettings
  1

  2
none_device
  4

  6

 40
0.0
 41
0.0
 42
0.0
 43
0.0
 44
0.0
 45
0.0
 46
0.0
 47
0.0
 48
0.0
 49
0.0
140
0.0
141
0.0
142
1.0
143
1.0
 70
   688
 72
     1
 73
     0
 74
     5
  7

 75
    16
147
1.0
148
0.0
149
0.0
100
AcDbLayout
  1
Layout1
 70
     1
 71
     1
 10
0.0
 20
0.0
 11
420.0
 21
297.0
 12
0.0
 22
0.0
 32
0.0
 14
1.0000000000E+20
 24
1.0000000000E+20
 34
1.0000000000E+20
 15
-1.0000000000E+20
 25
-1.0000000000E+20
 35
-1.0000000000E+20
146
0.0
 13
0.0
 23
0.0
 33
0.0
 16
1.0
 26
0.0
 36
0.0
 17
0.0
 27
1.0
 37
0.0
 76
     0
330
1B
  0
LAYOUT
  5
26
102
{ACAD_REACTORS
330
1A
102
}
330
1A
100
AcDbPlotSettings
  1

  2
none_device
  4

  6

 40
0.0
 41
0.0
 42
0.0
 43
0.0
 44
0.0
 45
0.0
 46
0.0
 47
0.0
 48
0.0
 49
0.0
140
0.0
141
0.0
142
1.0
143
1.0
 70
   688
 72
     1
 73
     0
 74
     5
  7

 75
    16
147
1.0
148
0.0
149
0.0
100
AcDbLayout
  1
Layout2
 70
     1
 71
     2
 10
0.0
 20
0.0
 11
0.0
 21
0.0
 12
0.0
 22
0.0
 32
0.0
 14
0.0
 24
0.0
 34
0.0
 15
0.0
 25
0.0
 35
0.0
146
0.0
 13
0.0
 23
0.0
 33
0.0
 16
1.0
 26
0.0
 36
0.0
 17
0.0
 27
1.0
 37
0.0
 76
     0
330
23
  0
LAYOUT
  5
22
102
{ACAD_REACTORS
330
1A
102
}
330
1A
100
AcDbPlotSettings
  1

  2
none_device
  4
Letter_(8.50_x_11.00_Inches)
  6

 40
6.35
 41
6.35
 42
6.35000508
 43
6.35000508
 44
215.9
 45
279.4
 46
0.0
 47
0.0
 48
0.0
 49
0.0
140
0.0
141
0.0
142
1.0
143
1.0
 70
  1712
 72
     1
 73
     0
 74
     0
  7

 75
     0
147
1.0
148
0.0
149
0.0
100
AcDbLayout
  1
Model
 70
     1
 71
     0
 10
0.0
 20
0.0
 11
279.4
 21
215.9
 12
0.0
 22
0.0
 32
0.0
 14
0.0
 24
0.0
 34
0.0
 15
279.4
 25
215.9
 35
0.0
146
0.0
 13
0.0
 23
0.0
 33
0.0
 16
1.0
 26
0.0
 36
0.0
 17
0.0
 27
1.0
 37
0.0
 76
     0
330
1F
331
29
  0
MLINESTYLE
  5
18
102
{ACAD_REACTORS
330
17
102
}
330
17
100
AcDbMlineStyle
  2
Standard
 70
     0
  3

 62
   256
 51
90.0
 52
90.0
 71
     2
 49
0.5
 62
   256
  6
BYLAYER
 49
-0.5
 62
   256
  6
BYLAYER
  0
ACDBPLACEHOLDER
  5
F
102
{ACAD_REACTORS
330
E
102
}
330
E
  0
SCALE
  5
48
102
{ACAD_REACTORS
330
47
102
}
330
47
100
AcDbScale
 70
     0
300
1:1
140
1.0
141
1.0
290
     1
  0
SCALE
  5
49
102
{ACAD_REACTORS
330
47
102
}
330
47
100
AcDbScale
 70
     0
300
1:2
140
1.0
141
2.0
290
     0
  0
SCALE
  5
4A
102
{ACAD_REACTORS
330
47
102
}
330
47
100
AcDbScale
 70
     0
300
1:4
140
1.0
141
4.0
290
     0
  0
SCALE
  5
4B
102
{ACAD_REACTORS
330
47
102
}
330
47
100
AcDbScale
 70
     0
300
1:5
140
1.0
141
5.0
290
     0
  0
SCALE
  5
4C
102
{ACAD_REACTORS
330
47
102
}
330
47
100
AcDbScale
 70
     0
300
1:8
140
1.0
141
8.0
290
     0
  0
SCALE
  5
4D
102
{ACAD_REACTORS
330
47
102
}
330
47
100
AcDbScale
 70
     0
300
1:10
140
1.0
141
10.0
290
     0
  0
SCALE
  5
4E
102
{ACAD_REACTORS
330
47
102
}
330
47
100
AcDbScale
 70
     0
300
1:16
140
1.0
141
16.0
290
     0
  0
SCALE
  5
4F
102
{ACAD_REACTORS
330
47
102
}
330
47
100
AcDbScale
 70
     0
300
1:20
140
1.0
141
20.0
290
     0
  0
SCALE
  5
50
102
{ACAD_REACTORS
330
47
102
}
330
47
100
AcDbScale
 70
     0
300
1:30
140
1.0
141
30.0
290
     0
  0
SCALE
  5
51
102
{ACAD_REACTORS
330
47
102
}
330
47
100
AcDbScale
 70
     0
300
1:40
140
1.0
141
40.0
290
     0
  0
SCALE
  5
52
102
{ACAD_REACTORS
330
47
102
}
330
47
100
AcDbScale
 70
     0
300
1:50
140
1.0
141
50.0
290
     0
  0
SCALE
  5
53
102
{ACAD_REACTORS
330
47
102
}
330
47
100
AcDbScale
 70
     0
300
1:100
140
1.0
141
100.0
290
     0
  0
SCALE
  5
54
102
{ACAD_REACTORS
330
47
102
}
330
47
100
AcDbScale
 70
     0
300
2:1
140
2.0
141
1.0
290
     0
  0
SCALE
  5
55
102
{ACAD_REACTORS
330
47
102
}
330
47
100
AcDbScale
 70
     0
300
4:1
140
4.0
141
1.0
290
     0
  0
SCALE
  5
56
102
{ACAD_REACTORS
330
47
102
}
330
47
100
AcDbScale
 70
     0
300
8:1
140
8.0
141
1.0
290
     0
  0
SCALE
  5
57
102
{ACAD_REACTORS
330
47
102
}
330
47
100
AcDbScale
 70
     0
300
10:1
140
10.0
141
1.0
290
     0
  0
SCALE
  5
58
102
{ACAD_REACTORS
330
47
102
}
330
47
100
AcDbScale
 70
     0
300
100:1
140
100.0
141
1.0
290
     0
  0
SCALE
  5
59
102
{ACAD_REACTORS
330
47
102
}
330
47
100
AcDbScale
 70
     0
300
1/128" = 1'-0"
140
0.0078125
141
12.0
290
     0
  0
SCALE
  5
5A
102
{ACAD_REACTORS
330
47
102
}
330
47
100
AcDbScale
 70
     0
300
1/64" = 1'-0"
140
0.015625
141
12.0
290
     0
  0
SCALE
  5
5B
102
{ACAD_REACTORS
330
47
102
}
330
47
100
AcDbScale
 70
     0
300
1/32" = 1'-0"
140
0.03125
141
12.0
290
     0
  0
SCALE
  5
5C
102
{ACAD_REACTORS
330
47
102
}
330
47
100
AcDbScale
 70
     0
300
1/16" = 1'-0"
140
0.0625
141
12.0
290
     0
  0
SCALE
  5
5D
102
{ACAD_REACTORS
330
47
102
}
330
47
100
AcDbScale
 70
     0
300
3/32" = 1'-0"
140
0.09375
141
12.0
290
     0
  0
SCALE
  5
5E
102
{ACAD_REACTORS
330
47
102
}
330
47
100
AcDbScale
 70
     0
300
1/8" = 1'-0"
140
0.125
141
12.0
290
     0
  0
SCALE
  5
5F
102
{ACAD_REACTORS
330
47
102
}
330
47
100
AcDbScale
 70
     0
300
3/16" = 1'-0"
140
0.1875
141
12.0
290
     0
  0
SCALE
  5
60
102
{ACAD_REACTORS
330
47
102
}
330
47
100
AcDbScale
 70
     0
300
1/4" = 1'-0"
140
0.25
141
12.0
290
     0
  0
SCALE
  5
61
102
{ACAD_REACTORS
330
47
102
}
330
47
100
AcDbScale
 70
     0
300
3/8" = 1'-0"
140
0.375
141
12.0
290
     0
  0
SCALE
  5
62
102
{ACAD_REACTORS
330
47
102
}
330
47
100
AcDbScale
 70
     0
300
1/2" = 1'-0"
140
0.5
141
12.0
290
     0
  0
SCALE
  5
63
102
{ACAD_REACTORS
330
47
102
}
330
47
100
AcDbScale
 70
     0
300
3/4" = 1'-0"
140
0.75
141
12.0
290
     0
  0
SCALE
  5
64
102
{ACAD_REACTORS
330
47
102
}
330
47
100
AcDbScale
 70
     0
300
1" = 1'-0"
140
1.0
141
12.0
290
     0
  0
SCALE
  5
65
102
{ACAD_REACTORS
330
47
102
}
330
47
100
AcDbScale
 70
     0
300
1-1/2" = 1'-0"
140
1.5
141
12.0
290
     0
  0
SCALE
  5
66
102
{ACAD_REACTORS
330
47
102
}
330
47
100
AcDbScale
 70
     0
300
3" = 1'-0"
140
3.0
141
12.0
290
     0
  0
SCALE
  5
67
102
{ACAD_REACTORS
330
47
102
}
330
47
100
AcDbScale
 70
     0
300
6" = 1'-0"
140
6.0
141
12.0
290
     0
  0
SCALE
  5
68
102
{ACAD_REACTORS
330
47
102
}
330
47
100
AcDbScale
 70
     0
300
1'-0" = 1'-0"
140
12.0
141
12.0
290
     0
  0
ENDSEC
  0
EOF
